ISO-10303-21;
HEADER;
FILE_DESCRIPTION (( 'STEP AP203' ),
    '1' );
FILE_NAME ('075NPTETS.STEP',
    '2019-09-03T07:53:21',
    ( '' ),
    ( '' ),
    'SwSTEP 2.0',
    'SolidWorks 2017',
    '' );
FILE_SCHEMA (( 'CONFIG_CONTROL_DESIGN' ));
ENDSEC;

DATA;
#1 = ORIENTED_EDGE ( 'NONE', *, *, #87, .T. ) ;
#2 = CARTESIAN_POINT ( 'NONE',  ( 2.108822382254075600E-015, 2.000000000000000000, -17.21984153898348100 ) ) ;
#3 = ADVANCED_FACE ( 'NONE', ( #237 ), #144, .T. ) ;
#4 = CARTESIAN_POINT ( 'NONE',  ( 1.647149944853190600E-015, 0.0000000000000000000, 13.45000000000000300 ) ) ;
#5 = DIRECTION ( 'NONE',  ( 0.0000000000000000000, -0.0000000000000000000, 1.000000000000000000 ) ) ;
#6 = CC_DESIGN_PERSON_AND_ORGANIZATION_ASSIGNMENT ( #239, #243, ( #168 ) ) ;
#7 = EDGE_CURVE ( 'NONE', #118, #184, #97, .T. ) ;
#8 = VERTEX_POINT ( 'NONE', #103 ) ;
#9 = APPLICATION_PROTOCOL_DEFINITION ( 'international standard', 'config_control_design', 1994, #62 ) ;
#10 = FACE_OUTER_BOUND ( 'NONE', #196, .T. ) ;
#11 = DIRECTION ( 'NONE',  ( -0.0000000000000000000, -1.000000000000000000, -0.0000000000000000000 ) ) ;
#12 = FACE_OUTER_BOUND ( 'NONE', #206, .T. ) ;
#13 = DESIGN_CONTEXT ( 'detailed design', #157, 'design' ) ;
#14 = VERTEX_POINT ( 'NONE', #169 ) ;
#15 = LOCAL_TIME ( 8, 53, 21.00000000000000000, #161 ) ;
#16 = SECURITY_CLASSIFICATION ( '', '', #240 ) ;
#17 = PLANE ( 'NONE',  #229 ) ;
#18 = DIRECTION ( 'NONE',  ( -0.0000000000000000000, -1.000000000000000000, -0.0000000000000000000 ) ) ;
#19 = APPROVAL_PERSON_ORGANIZATION ( #197, #246, #114 ) ;
#20 = FACE_BOUND ( 'NONE', #37, .T. ) ;
#21 = VERTEX_POINT ( 'NONE', #4 ) ;
#22 = VECTOR ( 'NONE', #163, 1000.000000000000000 ) ;
#23 = LOCAL_TIME ( 8, 53, 21.00000000000000000, #212 ) ;
#24 = VERTEX_POINT ( 'NONE', #207 ) ;
#25 = DIRECTION ( 'NONE',  ( -0.0000000000000000000, -1.000000000000000000, -0.0000000000000000000 ) ) ;
#26 = CC_DESIGN_DATE_AND_TIME_ASSIGNMENT ( #249, #76, ( #16 ) ) ;
#27 = VECTOR ( 'NONE', #80, 1000.000000000000100 ) ;
#28 = DIRECTION ( 'NONE',  ( 0.0000000000000000000, 0.0000000000000000000, 1.000000000000000000 ) ) ;
#29 = PERSON_AND_ORGANIZATION ( #115, #151 ) ;
#30 = DIRECTION ( 'NONE',  ( 0.0000000000000000000, 0.0000000000000000000, -1.000000000000000000 ) ) ;
#31 = ADVANCED_FACE ( 'NONE', ( #111, #20 ), #67, .F. ) ;
#32 = DATE_AND_TIME ( #122, #15 ) ;
#33 = CIRCLE ( 'NONE', #100, 13.45000000000000300 ) ;
#34 = UNCERTAINTY_MEASURE_WITH_UNIT (LENGTH_MEASURE( 1.000000000000000100E-005 ), #200, 'distance_accuracy_value', 'NONE');
#35 = CARTESIAN_POINT ( 'NONE',  ( 0.0000000000000000000, 2.000000000000000000, 0.0000000000000000000 ) ) ;
#36 = CARTESIAN_POINT ( 'NONE',  ( -17.14999999999999900, 0.0000000000000000000, 0.0000000000000000000 ) ) ;
#37 = EDGE_LOOP ( 'NONE', ( #89, #182 ) ) ;
#38 = DIRECTION ( 'NONE',  ( 0.0000000000000000000, 1.000000000000000000, 0.0000000000000000000 ) ) ;
#39 = APPROVAL ( #42, 'UNSPECIFIED' ) ;
#40 = ORIENTED_EDGE ( 'NONE', *, *, #113, .F. ) ;
#41 = DATE_AND_TIME ( #91, #165 ) ;
#42 = APPROVAL_STATUS ( 'not_yet_approved' ) ;
#43 = DIRECTION ( 'NONE',  ( 1.000000000000000000, 0.0000000000000000000, 0.0000000000000000000 ) ) ;
#44 = EDGE_CURVE ( 'NONE', #21, #14, #106, .T. ) ;
#45 = CARTESIAN_POINT ( 'NONE',  ( 0.0000000000000000000, 0.0000000000000000000, 0.0000000000000000000 ) ) ;
#46 = SHAPE_DEFINITION_REPRESENTATION ( #58, #170 ) ;
#47 = CC_DESIGN_DATE_AND_TIME_ASSIGNMENT ( #142, #220, ( #186 ) ) ;
#48 = DIRECTION ( 'NONE',  ( 0.0000000000000000000, 0.0000000000000000000, -1.000000000000000000 ) ) ;
#49 = DIRECTION ( 'NONE',  ( 0.0000000000000000000, 0.0000000000000000000, -1.000000000000000000 ) ) ;
#50 = CARTESIAN_POINT ( 'NONE',  ( 0.0000000000000000000, 0.0000000000000000000, 0.0000000000000000000 ) ) ;
#51 = DIRECTION ( 'NONE',  ( -0.0000000000000000000, -1.000000000000000000, -0.0000000000000000000 ) ) ;
#52 = EDGE_CURVE ( 'NONE', #79, #8, #33, .T. ) ;
#53 = EDGE_LOOP ( 'NONE', ( #40, #178 ) ) ;
#54 = PERSON_AND_ORGANIZATION ( #115, #151 ) ;
#55 = LINE ( 'NONE', #132, #204 ) ;
#56 = APPROVAL_ROLE ( '' ) ;
#57 = PRODUCT ( '075NPTETS', '075NPTETS', '', ( #198 ) ) ;
#58 = PRODUCT_DEFINITION_SHAPE ( 'NONE', 'NONE',  #186 ) ;
#59 = CC_DESIGN_APPROVAL ( #39, ( #16 ) ) ;
#60 = PERSON_AND_ORGANIZATION_ROLE ( 'creator' ) ;
#61 = CYLINDRICAL_SURFACE ( 'NONE', #128, 13.45000000000000300 ) ;
#62 = APPLICATION_CONTEXT ( 'configuration controlled 3d designs of mechanical parts and assemblies' ) ;
#63 = VECTOR ( 'NONE', #88, 1000.000000000000100 ) ;
#64 = AXIS2_PLACEMENT_3D ( 'NONE', #45, #92, #43 ) ;
#65 = EDGE_LOOP ( 'NONE', ( #187, #224 ) ) ;
#66 = EDGE_CURVE ( 'NONE', #155, #118, #228, .T. ) ;
#67 = PLANE ( 'NONE',  #120 ) ;
#68 = CARTESIAN_POINT ( 'NONE',  ( 0.0000000000000000000, 2.000000000000000000, -13.45000000000000300 ) ) ;
#69 = CC_DESIGN_SECURITY_CLASSIFICATION ( #16, ( #168 ) ) ;
#70 = DIRECTION ( 'NONE',  ( -0.0000000000000000000, -1.000000000000000000, -0.0000000000000000000 ) ) ;
#71 = ORIENTED_EDGE ( 'NONE', *, *, #98, .T. ) ;
#72 = FACE_OUTER_BOUND ( 'NONE', #180, .T. ) ;
#73 = LINE ( 'NONE', #95, #27 ) ;
#74 = CC_DESIGN_PERSON_AND_ORGANIZATION_ASSIGNMENT ( #93, #138, ( #16 ) ) ;
#75 = CALENDAR_DATE ( 2019, 3, 9 ) ;
#76 = DATE_TIME_ROLE ( 'classification_date' ) ;
#77 = EDGE_LOOP ( 'NONE', ( #244, #136, #139, #164 ) ) ;
#78 = CARTESIAN_POINT ( 'NONE',  ( 0.0000000000000000000, 0.0000000000000000000, 0.0000000000000000000 ) ) ;
#79 = VERTEX_POINT ( 'NONE', #68 ) ;
#80 = DIRECTION ( 'NONE',  ( 0.0000000000000000000, 0.9993908270190958700, 0.03489949670249519600 ) ) ;
#81 = CIRCLE ( 'NONE', #135, 13.45000000000000300 ) ;
#82 = EDGE_LOOP ( 'NONE', ( #242, #146, #101, #133 ) ) ;
#83 = FACE_BOUND ( 'NONE', #53, .T. ) ;
#84 = DIRECTION ( 'NONE',  ( 0.0000000000000000000, 0.0000000000000000000, -1.000000000000000000 ) ) ;
#85 = AXIS2_PLACEMENT_3D ( 'NONE', #174, #51, #192 ) ;
#86 = CARTESIAN_POINT ( 'NONE',  ( -17.21984153898348100, 2.000000000000000000, 0.0000000000000000000 ) ) ;
#87 = EDGE_CURVE ( 'NONE', #155, #24, #137, .T. ) ;
#88 = DIRECTION ( 'NONE',  ( 4.273955692856434600E-018, 0.9993908270190958700, -0.03489949670249519600 ) ) ;
#89 = ORIENTED_EDGE ( 'NONE', *, *, #52, .T. ) ;
#90 = CARTESIAN_POINT ( 'NONE',  ( 0.0000000000000000000, 2.000000000000000000, 0.0000000000000000000 ) ) ;
#91 = CALENDAR_DATE ( 2019, 3, 9 ) ;
#92 = DIRECTION ( 'NONE',  ( 0.0000000000000000000, 0.0000000000000000000, 1.000000000000000000 ) ) ;
#93 = PERSON_AND_ORGANIZATION ( #115, #151 ) ;
#94 = APPROVAL_ROLE ( '' ) ;
#95 = CARTESIAN_POINT ( 'NONE',  ( 0.0000000000000000000, 2.000000000000000000, 17.21984153898348100 ) ) ;
#96 = AXIS2_PLACEMENT_3D ( 'NONE', #78, #25, #181 ) ;
#97 = CIRCLE ( 'NONE', #162, 17.21984153898348100 ) ;
#98 = EDGE_CURVE ( 'NONE', #24, #155, #236, .T. ) ;
#99 = PERSON_AND_ORGANIZATION ( #115, #151 ) ;
#100 = AXIS2_PLACEMENT_3D ( 'NONE', #131, #189, #126 ) ;
#101 = ORIENTED_EDGE ( 'NONE', *, *, #44, .T. ) ;
#102 = AXIS2_PLACEMENT_3D ( 'NONE', #233, #166, #48 ) ;
#103 = CARTESIAN_POINT ( 'NONE',  ( 1.647149944853190600E-015, 2.000000000000000000, 13.45000000000000300 ) ) ;
#104 = COORDINATED_UNIVERSAL_TIME_OFFSET ( 0, 0, .AHEAD. ) ;
#105 = ADVANCED_FACE ( 'NONE', ( #83, #72 ), #17, .F. ) ;
#106 = CIRCLE ( 'NONE', #102, 13.45000000000000300 ) ;
#107 = CARTESIAN_POINT ( 'NONE',  ( 0.0000000000000000000, 2.000000000000000000, 0.0000000000000000000 ) ) ;
#108 = DATE_AND_TIME ( #208, #116 ) ;
#109 = ORIENTED_EDGE ( 'NONE', *, *, #87, .F. ) ;
#110 = APPROVAL_DATE_TIME ( #32, #149 ) ;
#111 = FACE_OUTER_BOUND ( 'NONE', #65, .T. ) ;
#112 =( GEOMETRIC_REPRESENTATION_CONTEXT ( 3 ) GLOBAL_UNCERTAINTY_ASSIGNED_CONTEXT ( ( #34 ) ) GLOBAL_UNIT_ASSIGNED_CONTEXT ( ( #200, #121, #140 ) ) REPRESENTATION_CONTEXT ( 'NONE', 'WORKASPACE' ) );
#113 = EDGE_CURVE ( 'NONE', #14, #21, #152, .T. ) ;
#114 = APPROVAL_ROLE ( '' ) ;
#115 = PERSON ( 'UNSPECIFIED', 'UNSPECIFIED', 'UNSPECIFIED', ('UNSPECIFIED'), ('UNSPECIFIED'), ('UNSPECIFIED') ) ;
#116 = LOCAL_TIME ( 8, 53, 21.00000000000000000, #171 ) ;
#117 = PERSON_AND_ORGANIZATION_ROLE ( 'creator' ) ;
#118 = VERTEX_POINT ( 'NONE', #2 ) ;
#119 = CC_DESIGN_PERSON_AND_ORGANIZATION_ASSIGNMENT ( #205, #60, ( #186 ) ) ;
#120 = AXIS2_PLACEMENT_3D ( 'NONE', #86, #209, #153 ) ;
#121 =( NAMED_UNIT ( * ) PLANE_ANGLE_UNIT ( ) SI_UNIT ( $, .RADIAN. ) );
#122 = CALENDAR_DATE ( 2019, 3, 9 ) ;
#123 = MANIFOLD_SOLID_BREP ( 'Revolve1', #175 ) ;
#124 = ORIENTED_EDGE ( 'NONE', *, *, #52, .F. ) ;
#125 = CARTESIAN_POINT ( 'NONE',  ( 0.0000000000000000000, 2.000000000000000000, 0.0000000000000000000 ) ) ;
#126 = DIRECTION ( 'NONE',  ( 0.0000000000000000000, 0.0000000000000000000, -1.000000000000000000 ) ) ;
#127 = LINE ( 'NONE', #159, #22 ) ;
#128 = AXIS2_PLACEMENT_3D ( 'NONE', #223, #148, #30 ) ;
#129 = EDGE_CURVE ( 'NONE', #79, #14, #55, .T. ) ;
#130 = ADVANCED_FACE ( 'NONE', ( #222 ), #61, .F. ) ;
#131 = CARTESIAN_POINT ( 'NONE',  ( 0.0000000000000000000, 2.000000000000000000, 0.0000000000000000000 ) ) ;
#132 = CARTESIAN_POINT ( 'NONE',  ( 0.0000000000000000000, 0.0000000000000000000, -13.45000000000000300 ) ) ;
#133 = ORIENTED_EDGE ( 'NONE', *, *, #129, .F. ) ;
#134 = CONICAL_SURFACE ( 'NONE', #160, 17.21984153898348100, 0.03490658503988081100 ) ;
#135 = AXIS2_PLACEMENT_3D ( 'NONE', #90, #234, #84 ) ;
#136 = ORIENTED_EDGE ( 'NONE', *, *, #98, .F. ) ;
#137 = CIRCLE ( 'NONE', #176, 17.14999999999999900 ) ;
#138 = PERSON_AND_ORGANIZATION_ROLE ( 'classification_officer' ) ;
#139 = ORIENTED_EDGE ( 'NONE', *, *, #150, .T. ) ;
#140 =( NAMED_UNIT ( * ) SI_UNIT ( $, .STERADIAN. ) SOLID_ANGLE_UNIT ( ) );
#141 = AXIS2_PLACEMENT_3D ( 'NONE', #125, #11, #245 ) ;
#142 = DATE_AND_TIME ( #75, #23 ) ;
#143 = DIRECTION ( 'NONE',  ( 0.0000000000000000000, 1.000000000000000000, 0.0000000000000000000 ) ) ;
#144 = CONICAL_SURFACE ( 'NONE', #177, 17.21984153898348100, 0.03490658503988081100 ) ;
#145 = CARTESIAN_POINT ( 'NONE',  ( 0.0000000000000000000, 2.000000000000000000, 17.21984153898348100 ) ) ;
#146 = ORIENTED_EDGE ( 'NONE', *, *, #247, .T. ) ;
#147 = APPROVAL_DATE_TIME ( #108, #39 ) ;
#148 = DIRECTION ( 'NONE',  ( -0.0000000000000000000, -1.000000000000000000, -0.0000000000000000000 ) ) ;
#149 = APPROVAL ( #219, 'UNSPECIFIED' ) ;
#150 = EDGE_CURVE ( 'NONE', #24, #184, #73, .T. ) ;
#151 = ORGANIZATION ( 'UNSPECIFIED', 'UNSPECIFIED', '' ) ;
#152 = CIRCLE ( 'NONE', #85, 13.45000000000000300 ) ;
#153 = DIRECTION ( 'NONE',  ( 0.0000000000000000000, 0.0000000000000000000, -1.000000000000000000 ) ) ;
#154 = DIRECTION ( 'NONE',  ( 0.0000000000000000000, 0.0000000000000000000, -1.000000000000000000 ) ) ;
#155 = VERTEX_POINT ( 'NONE', #185 ) ;
#156 = APPROVAL_PERSON_ORGANIZATION ( #54, #39, #94 ) ;
#157 = APPLICATION_CONTEXT ( 'configuration controlled 3d designs of mechanical parts and assemblies' ) ;
#158 = ORIENTED_EDGE ( 'NONE', *, *, #7, .T. ) ;
#159 = CARTESIAN_POINT ( 'NONE',  ( 1.647149944853190600E-015, 0.0000000000000000000, 13.45000000000000300 ) ) ;
#160 = AXIS2_PLACEMENT_3D ( 'NONE', #248, #143, #28 ) ;
#161 = COORDINATED_UNIVERSAL_TIME_OFFSET ( 0, 0, .AHEAD. ) ;
#162 = AXIS2_PLACEMENT_3D ( 'NONE', #35, #230, #49 ) ;
#163 = DIRECTION ( 'NONE',  ( -0.0000000000000000000, -1.000000000000000000, -0.0000000000000000000 ) ) ;
#164 = ORIENTED_EDGE ( 'NONE', *, *, #202, .T. ) ;
#165 = LOCAL_TIME ( 8, 53, 21.00000000000000000, #221 ) ;
#166 = DIRECTION ( 'NONE',  ( -0.0000000000000000000, -1.000000000000000000, -0.0000000000000000000 ) ) ;
#167 = ADVANCED_FACE ( 'NONE', ( #12 ), #134, .T. ) ;
#168 = PRODUCT_DEFINITION_FORMATION_WITH_SPECIFIED_SOURCE ( 'ANY', '', #57, .NOT_KNOWN. ) ;
#169 = CARTESIAN_POINT ( 'NONE',  ( 0.0000000000000000000, 0.0000000000000000000, -13.45000000000000300 ) ) ;
#170 = ADVANCED_BREP_SHAPE_REPRESENTATION ( '075NPTETS', ( #123, #64 ), #112 ) ;
#171 = COORDINATED_UNIVERSAL_TIME_OFFSET ( 0, 0, .AHEAD. ) ;
#172 = CARTESIAN_POINT ( 'NONE',  ( 2.108822382254075600E-015, 2.000000000000000000, -17.21984153898348100 ) ) ;
#173 = DIRECTION ( 'NONE',  ( -0.0000000000000000000, -1.000000000000000000, -0.0000000000000000000 ) ) ;
#174 = CARTESIAN_POINT ( 'NONE',  ( 0.0000000000000000000, 0.0000000000000000000, 0.0000000000000000000 ) ) ;
#175 = CLOSED_SHELL ( 'NONE', ( #130, #167, #3, #105, #210, #31 ) ) ;
#176 = AXIS2_PLACEMENT_3D ( 'NONE', #50, #70, #154 ) ;
#177 = AXIS2_PLACEMENT_3D ( 'NONE', #107, #211, #232 ) ;
#178 = ORIENTED_EDGE ( 'NONE', *, *, #44, .F. ) ;
#179 = PERSON_AND_ORGANIZATION_ROLE ( 'design_owner' ) ;
#180 = EDGE_LOOP ( 'NONE', ( #71, #1 ) ) ;
#181 = DIRECTION ( 'NONE',  ( 0.0000000000000000000, 0.0000000000000000000, -1.000000000000000000 ) ) ;
#182 = ORIENTED_EDGE ( 'NONE', *, *, #188, .T. ) ;
#183 = LOCAL_TIME ( 8, 53, 21.00000000000000000, #104 ) ;
#184 = VERTEX_POINT ( 'NONE', #145 ) ;
#185 = CARTESIAN_POINT ( 'NONE',  ( 2.104545821395893100E-015, 0.0000000000000000000, -17.14999999999999900 ) ) ;
#186 = PRODUCT_DEFINITION ( 'UNKNOWN', '', #168, #13 ) ;
#187 = ORIENTED_EDGE ( 'NONE', *, *, #202, .F. ) ;
#188 = EDGE_CURVE ( 'NONE', #8, #79, #81, .T. ) ;
#189 = DIRECTION ( 'NONE',  ( -0.0000000000000000000, -1.000000000000000000, -0.0000000000000000000 ) ) ;
#190 = DIRECTION ( 'NONE',  ( 0.0000000000000000000, 0.0000000000000000000, -1.000000000000000000 ) ) ;
#191 = ORIENTED_EDGE ( 'NONE', *, *, #129, .T. ) ;
#192 = DIRECTION ( 'NONE',  ( 0.0000000000000000000, 0.0000000000000000000, -1.000000000000000000 ) ) ;
#193 = PRODUCT_RELATED_PRODUCT_CATEGORY ( 'detail', '', ( #57 ) ) ;
#194 = PERSON_AND_ORGANIZATION ( #115, #151 ) ;
#195 = AXIS2_PLACEMENT_3D ( 'NONE', #213, #173, #190 ) ;
#196 = EDGE_LOOP ( 'NONE', ( #227, #124, #191, #231 ) ) ;
#197 = PERSON_AND_ORGANIZATION ( #115, #151 ) ;
#198 = MECHANICAL_CONTEXT ( 'NONE', #62, 'mechanical' ) ;
#199 = APPROVAL_STATUS ( 'not_yet_approved' ) ;
#200 =( LENGTH_UNIT ( ) NAMED_UNIT ( * ) SI_UNIT ( .MILLI., .METRE. ) );
#201 = CC_DESIGN_APPROVAL ( #149, ( #186 ) ) ;
#202 = EDGE_CURVE ( 'NONE', #184, #118, #217, .T. ) ;
#203 = APPROVAL_PERSON_ORGANIZATION ( #29, #149, #56 ) ;
#204 = VECTOR ( 'NONE', #18, 1000.000000000000000 ) ;
#205 = PERSON_AND_ORGANIZATION ( #115, #151 ) ;
#206 = EDGE_LOOP ( 'NONE', ( #109, #235, #158, #214 ) ) ;
#207 = CARTESIAN_POINT ( 'NONE',  ( 0.0000000000000000000, 0.0000000000000000000, 17.14999999999999900 ) ) ;
#208 = CALENDAR_DATE ( 2019, 3, 9 ) ;
#209 = DIRECTION ( 'NONE',  ( 0.0000000000000000000, -1.000000000000000000, -0.0000000000000000000 ) ) ;
#210 = ADVANCED_FACE ( 'NONE', ( #10 ), #218, .F. ) ;
#211 = DIRECTION ( 'NONE',  ( 0.0000000000000000000, 1.000000000000000000, 0.0000000000000000000 ) ) ;
#212 = COORDINATED_UNIVERSAL_TIME_OFFSET ( 0, 0, .AHEAD. ) ;
#213 = CARTESIAN_POINT ( 'NONE',  ( 0.0000000000000000000, 0.0000000000000000000, 0.0000000000000000000 ) ) ;
#214 = ORIENTED_EDGE ( 'NONE', *, *, #150, .F. ) ;
#215 = CC_DESIGN_PERSON_AND_ORGANIZATION_ASSIGNMENT ( #99, #117, ( #168 ) ) ;
#216 = APPROVAL_DATE_TIME ( #41, #246 ) ;
#217 = CIRCLE ( 'NONE', #141, 17.21984153898348100 ) ;
#218 = CYLINDRICAL_SURFACE ( 'NONE', #96, 13.45000000000000300 ) ;
#219 = APPROVAL_STATUS ( 'not_yet_approved' ) ;
#220 = DATE_TIME_ROLE ( 'creation_date' ) ;
#221 = COORDINATED_UNIVERSAL_TIME_OFFSET ( 0, 0, .AHEAD. ) ;
#222 = FACE_OUTER_BOUND ( 'NONE', #82, .T. ) ;
#223 = CARTESIAN_POINT ( 'NONE',  ( 0.0000000000000000000, 0.0000000000000000000, 0.0000000000000000000 ) ) ;
#224 = ORIENTED_EDGE ( 'NONE', *, *, #7, .F. ) ;
#225 = CC_DESIGN_PERSON_AND_ORGANIZATION_ASSIGNMENT ( #194, #179, ( #57 ) ) ;
#226 = CALENDAR_DATE ( 2019, 3, 9 ) ;
#227 = ORIENTED_EDGE ( 'NONE', *, *, #247, .F. ) ;
#228 = LINE ( 'NONE', #172, #63 ) ;
#229 = AXIS2_PLACEMENT_3D ( 'NONE', #36, #38, #5 ) ;
#230 = DIRECTION ( 'NONE',  ( -0.0000000000000000000, -1.000000000000000000, -0.0000000000000000000 ) ) ;
#231 = ORIENTED_EDGE ( 'NONE', *, *, #113, .T. ) ;
#232 = DIRECTION ( 'NONE',  ( 0.0000000000000000000, 0.0000000000000000000, 1.000000000000000000 ) ) ;
#233 = CARTESIAN_POINT ( 'NONE',  ( 0.0000000000000000000, 0.0000000000000000000, 0.0000000000000000000 ) ) ;
#234 = DIRECTION ( 'NONE',  ( -0.0000000000000000000, -1.000000000000000000, -0.0000000000000000000 ) ) ;
#235 = ORIENTED_EDGE ( 'NONE', *, *, #66, .T. ) ;
#236 = CIRCLE ( 'NONE', #195, 17.14999999999999900 ) ;
#237 = FACE_OUTER_BOUND ( 'NONE', #77, .T. ) ;
#238 = CC_DESIGN_APPROVAL ( #246, ( #168 ) ) ;
#239 = PERSON_AND_ORGANIZATION ( #115, #151 ) ;
#240 = SECURITY_CLASSIFICATION_LEVEL ( 'unclassified' ) ;
#241 = APPLICATION_PROTOCOL_DEFINITION ( 'international standard', 'config_control_design', 1994, #157 ) ;
#242 = ORIENTED_EDGE ( 'NONE', *, *, #188, .F. ) ;
#243 = PERSON_AND_ORGANIZATION_ROLE ( 'design_supplier' ) ;
#244 = ORIENTED_EDGE ( 'NONE', *, *, #66, .F. ) ;
#245 = DIRECTION ( 'NONE',  ( 0.0000000000000000000, 0.0000000000000000000, -1.000000000000000000 ) ) ;
#246 = APPROVAL ( #199, 'UNSPECIFIED' ) ;
#247 = EDGE_CURVE ( 'NONE', #8, #21, #127, .T. ) ;
#248 = CARTESIAN_POINT ( 'NONE',  ( 0.0000000000000000000, 2.000000000000000000, 0.0000000000000000000 ) ) ;
#249 = DATE_AND_TIME ( #226, #183 ) ;
ENDSEC;
END-ISO-10303-21;
